ISO-10303-21;
HEADER;
FILE_DESCRIPTION (( 'STEP AP214' ),
    '1' );
FILE_NAME ('FULLVAC BT1KF403819.STEP',
    '2019-04-24T08:23:31',
    ( '' ),
    ( '' ),
    'SwSTEP 2.0',
    'SolidWorks 2017',
    '' );
FILE_SCHEMA (( 'AUTOMOTIVE_DESIGN' ));
ENDSEC;

DATA;
#1 = FACE_BOUND ( 'NONE', #56, .T. ) ;
#2 = AXIS2_PLACEMENT_3D ( 'NONE', #103, #71, #200 ) ;
#3 = DIRECTION ( 'NONE',  ( 0.0000000000000000000, 1.000000000000000000, 0.0000000000000000000 ) ) ;
#4 = CARTESIAN_POINT ( 'NONE',  ( 0.0000000000000000000, 0.0000000000000000000, 0.0000000000000000000 ) ) ;
#5 = CLOSED_SHELL ( 'NONE', ( #113, #14, #149, #129, #230, #170, #187, #12, #58 ) ) ;
#6 = CARTESIAN_POINT ( 'NONE',  ( -54.89999999999999100, 2.616336506010520100, -27.44999999999999600 ) ) ;
#7 = ORIENTED_EDGE ( 'NONE', *, *, #180, .F. ) ;
#8 = VERTEX_POINT ( 'NONE', #78 ) ;
#9 = COLOUR_RGB ( '',0.7450980392156862900, 0.7450980392156862900, 0.7450980392156862900 ) ;
#10 = DIRECTION ( 'NONE',  ( 0.0000000000000000000, 1.000000000000000000, 0.0000000000000000000 ) ) ;
#11 = DIRECTION ( 'NONE',  ( 0.0000000000000000000, 1.000000000000000000, 0.0000000000000000000 ) ) ;
#12 = ADVANCED_FACE ( 'NONE', ( #150, #99 ), #207, .T. ) ;
#13 = AXIS2_PLACEMENT_3D ( 'NONE', #136, #177, #70 ) ;
#14 = ADVANCED_FACE ( 'NONE', ( #1, #237 ), #210, .T. ) ;
#15 = VERTEX_POINT ( 'NONE', #91 ) ;
#16 = SURFACE_STYLE_FILL_AREA ( #36 ) ;
#17 = CARTESIAN_POINT ( 'NONE',  ( 0.0000000000000000000, 3.099299419171333400, 0.0000000000000000000 ) ) ;
#18 = AXIS2_PLACEMENT_3D ( 'NONE', #25, #222, #45 ) ;
#19 = CARTESIAN_POINT ( 'NONE',  ( 54.89999999999999100, 2.616336506010520100, 27.44999999999999600 ) ) ;
#20 = PRODUCT ( 'FULLVAC BT1KF403819', 'FULLVAC BT1KF403819', '', ( #254 ) ) ;
#21 = CARTESIAN_POINT ( 'NONE',  ( 0.0000000000000000000, 5.250773216421429800, 19.05000000000000100 ) ) ;
#22 = CARTESIAN_POINT ( 'NONE',  ( 0.0000000000000000000, 5.250773216421429800, 0.0000000000000000000 ) ) ;
#23 = CARTESIAN_POINT ( 'NONE',  ( -54.15881904510260400, 3.099299419155042900, 27.07940952255130200 ) ) ;
#24 = CARTESIAN_POINT ( 'NONE',  ( 2.437219727497130000E-015, 0.0000000000000000000, 0.0000000000000000000 ) ) ;
#25 = CARTESIAN_POINT ( 'NONE',  ( -9.288219883035680400E-016, 2.540000000000000000, -3.592954772249700200E-016 ) ) ;
#26 = CARTESIAN_POINT ( 'NONE',  ( -54.89999999999999100, 2.616336506010520100, 27.44999999999999600 ) ) ;
#27 =( GEOMETRIC_REPRESENTATION_CONTEXT ( 3 ) GLOBAL_UNCERTAINTY_ASSIGNED_CONTEXT ( ( #44 ) ) GLOBAL_UNIT_ASSIGNED_CONTEXT ( ( #250, #153, #32 ) ) REPRESENTATION_CONTEXT ( 'NONE', 'WORKASPACE' ) );
#28 = EDGE_CURVE ( 'NONE', #167, #167, #205, .T. ) ;
#29 = DIRECTION ( 'NONE',  ( 0.0000000000000000000, 0.0000000000000000000, 1.000000000000000000 ) ) ;
#30 = SURFACE_SIDE_STYLE ('',( #195 ) ) ;
#31 = DIRECTION ( 'NONE',  ( 0.0000000000000000000, -0.0000000000000000000, 1.000000000000000000 ) ) ;
#32 =( NAMED_UNIT ( * ) SI_UNIT ( $, .STERADIAN. ) SOLID_ANGLE_UNIT ( ) );
#33 = CARTESIAN_POINT ( 'NONE',  ( 54.89999999999999900, 2.851678778707475100, -27.44999999999999900 ) ) ;
#34 = CYLINDRICAL_SURFACE ( 'NONE', #165, 27.44999999999999900 ) ;
#35 = DIRECTION ( 'NONE',  ( 0.0000000000000000000, 0.0000000000000000000, 1.000000000000000000 ) ) ;
#36 = FILL_AREA_STYLE ('',( #234 ) ) ;
#37 = EDGE_LOOP ( 'NONE', ( #252 ) ) ;
#38 =( GEOMETRIC_REPRESENTATION_CONTEXT ( 3 ) GLOBAL_UNCERTAINTY_ASSIGNED_CONTEXT ( ( #219 ) ) GLOBAL_UNIT_ASSIGNED_CONTEXT ( ( #233, #253, #79 ) ) REPRESENTATION_CONTEXT ( 'NONE', 'WORKASPACE' ) );
#39 = PRESENTATION_STYLE_ASSIGNMENT (( #146 ) ) ;
#40 = CIRCLE ( 'NONE', #145, 17.39999999999999900 ) ;
#41 = FACE_OUTER_BOUND ( 'NONE', #258, .T. ) ;
#42 = EDGE_CURVE ( 'NONE', #15, #15, #179, .T. ) ;
#43 = DIRECTION ( 'NONE',  ( 0.0000000000000000000, 1.000000000000000000, 0.0000000000000000000 ) ) ;
#44 = UNCERTAINTY_MEASURE_WITH_UNIT (LENGTH_MEASURE( 1.000000000000000100E-005 ), #250, 'distance_accuracy_value', 'NONE');
#45 = DIRECTION ( 'NONE',  ( 0.0000000000000000000, -0.0000000000000000000, 1.000000000000000000 ) ) ;
#46 = EDGE_LOOP ( 'NONE', ( #201 ) ) ;
#47 = FACE_OUTER_BOUND ( 'NONE', #158, .T. ) ;
#48 = FACE_OUTER_BOUND ( 'NONE', #66, .T. ) ;
#49 = CIRCLE ( 'NONE', #74, 27.07940952255566500 ) ;
#50 = EDGE_LOOP ( 'NONE', ( #196 ) ) ;
#51 = CYLINDRICAL_SURFACE ( 'NONE', #202, 20.60000000000000100 ) ;
#52 = CARTESIAN_POINT ( 'NONE',  ( 0.0000000000000000000, 19.10000000000000100, 0.0000000000000000000 ) ) ;
#53 = ORIENTED_EDGE ( 'NONE', *, *, #42, .T. ) ;
#54 = DIRECTION ( 'NONE',  ( 0.0000000000000000000, 1.000000000000000000, 0.0000000000000000000 ) ) ;
#55 = ORIENTED_EDGE ( 'NONE', *, *, #82, .T. ) ;
#56 = EDGE_LOOP ( 'NONE', ( #53 ) ) ;
#57 = CARTESIAN_POINT ( 'NONE',  ( 0.0000000000000000000, 2.851678778707475500, 27.45000000000000600 ) ) ;
#58 = ADVANCED_FACE ( 'NONE', ( #151, #134 ), #34, .T. ) ;
#59 = PRESENTATION_LAYER_ASSIGNMENT (  '', '', ( #241 ) ) ;
#60 = VERTEX_POINT ( 'NONE', #96 ) ;
#61 = APPLICATION_PROTOCOL_DEFINITION ( 'draft international standard', 'automotive_design', 1998, #191 ) ;
#62 = AXIS2_PLACEMENT_3D ( 'NONE', #52, #209, #229 ) ;
#63 = CARTESIAN_POINT ( 'NONE',  ( 0.0000000000000000000, 2.540000000000000000, 20.60000000000000100 ) ) ;
#64 = DIRECTION ( 'NONE',  ( 1.000000000000000000, 0.0000000000000000000, 0.0000000000000000000 ) ) ;
#65 = CARTESIAN_POINT ( 'NONE',  ( 0.0000000000000000000, 3.038388356863341000, 27.30673270176685500 ) ) ;
#66 = EDGE_LOOP ( 'NONE', ( #166 ) ) ;
#67 = CARTESIAN_POINT ( 'NONE',  ( 54.15881904510260400, 3.099299419155042900, 27.07940952255130200 ) ) ;
#68 = AXIS2_PLACEMENT_3D ( 'NONE', #24, #83, #238 ) ;
#69 = VERTEX_POINT ( 'NONE', #173 ) ;
#70 = DIRECTION ( 'NONE',  ( 0.0000000000000000000, 0.0000000000000000000, 1.000000000000000000 ) ) ;
#71 = DIRECTION ( 'NONE',  ( 0.0000000000000000000, 1.000000000000000000, 0.0000000000000000000 ) ) ;
#72 = MECHANICAL_DESIGN_GEOMETRIC_PRESENTATION_REPRESENTATION (  '', ( #218 ), #81 ) ;
#73 = AXIS2_PLACEMENT_3D ( 'NONE', #86, #227, #110 ) ;
#74 = AXIS2_PLACEMENT_3D ( 'NONE', #240, #85, #125 ) ;
#75 = DIRECTION ( 'NONE',  ( 0.0000000000000000000, 0.0000000000000000000, 1.000000000000000000 ) ) ;
#76 = DIRECTION ( 'NONE',  ( 0.0000000000000000000, 0.0000000000000000000, -1.000000000000000000 ) ) ;
#77 = CARTESIAN_POINT ( 'NONE',  ( 0.0000000000000000000, 2.851678778707475500, 27.45000000000000600 ) ) ;
#78 = CARTESIAN_POINT ( 'NONE',  ( 0.0000000000000000000, 0.0000000000000000000, 27.44999999999999900 ) ) ;
#79 =( NAMED_UNIT ( * ) SI_UNIT ( $, .STERADIAN. ) SOLID_ANGLE_UNIT ( ) );
#80 = ADVANCED_BREP_SHAPE_REPRESENTATION ( 'FULLVAC BT1KF403819', ( #169, #182 ), #38 ) ;
#81 =( GEOMETRIC_REPRESENTATION_CONTEXT ( 3 ) GLOBAL_UNCERTAINTY_ASSIGNED_CONTEXT ( ( #98 ) ) GLOBAL_UNIT_ASSIGNED_CONTEXT ( ( #214, #174, #255 ) ) REPRESENTATION_CONTEXT ( 'NONE', 'WORKASPACE' ) );
#82 = EDGE_CURVE ( 'NONE', #106, #106, #100, .T. ) ;
#83 = DIRECTION ( 'NONE',  ( 0.0000000000000000000, 1.000000000000000000, 0.0000000000000000000 ) ) ;
#84 = CARTESIAN_POINT ( 'NONE',  ( 0.0000000000000000000, 19.10000000000000100, 19.05000000000000100 ) ) ;
#85 = DIRECTION ( 'NONE',  ( -0.0000000000000000000, 1.000000000000000000, -0.0000000000000000000 ) ) ;
#86 = CARTESIAN_POINT ( 'NONE',  ( 0.0000000000000000000, 19.10000000000000100, 0.0000000000000000000 ) ) ;
#87 = ORIENTED_EDGE ( 'NONE', *, *, #95, .T. ) ;
#88 = CARTESIAN_POINT ( 'NONE',  ( 0.0000000000000000000, 2.540000000000000500, 0.0000000000000000000 ) ) ;
#89 = FACE_BOUND ( 'NONE', #152, .T. ) ;
#90 = ORIENTED_EDGE ( 'NONE', *, *, #122, .F. ) ;
#91 = CARTESIAN_POINT ( 'NONE',  ( 0.0000000000000000000, 19.10000000000000100, -17.39999999999999900 ) ) ;
#92 = EDGE_LOOP ( 'NONE', ( #245 ) ) ;
#93 = EDGE_CURVE ( 'NONE', #60, #60, #251, .T. ) ;
#94 = CARTESIAN_POINT ( 'NONE',  ( -54.89999999999999900, 2.851678778707475100, 27.44999999999999900 ) ) ;
#95 = EDGE_CURVE ( 'NONE', #69, #69, #40, .T. ) ;
#96 = CARTESIAN_POINT ( 'NONE',  ( 0.0000000000000000000, 0.0000000000000000000, 20.60000000000000100 ) ) ;
#97 = EDGE_LOOP ( 'NONE', ( #256 ) ) ;
#98 = UNCERTAINTY_MEASURE_WITH_UNIT (LENGTH_MEASURE( 1.000000000000000100E-005 ), #214, 'distance_accuracy_value', 'NONE');
#99 = FACE_OUTER_BOUND ( 'NONE', #97, .T. ) ;
#100 = CIRCLE ( 'NONE', #62, 19.05000000000000100 ) ;
#101 = DIRECTION ( 'NONE',  ( 0.0000000000000000000, 0.0000000000000000000, 1.000000000000000000 ) ) ;
#102 = EDGE_LOOP ( 'NONE', ( #204 ) ) ;
#103 = CARTESIAN_POINT ( 'NONE',  ( 0.0000000000000000000, 0.0000000000000000000, 0.0000000000000000000 ) ) ;
#104 = FACE_OUTER_BOUND ( 'NONE', #142, .T. ) ;
#105 = EDGE_LOOP ( 'NONE', ( #189 ) ) ;
#106 = VERTEX_POINT ( 'NONE', #84 ) ;
#107 = PRESENTATION_STYLE_ASSIGNMENT (( #119 ) ) ;
#108 = EDGE_CURVE ( 'NONE', #154, #154, #144, .T. ) ;
#109 = DIRECTION ( 'NONE',  ( 0.0000000000000000000, 0.0000000000000000000, 1.000000000000000000 ) ) ;
#110 = DIRECTION ( 'NONE',  ( 0.0000000000000000000, 0.0000000000000000000, -1.000000000000000000 ) ) ;
#111 = CARTESIAN_POINT ( 'NONE',  ( 0.0000000000000000000, 19.10000000000000100, 0.0000000000000000000 ) ) ;
#112 = CYLINDRICAL_SURFACE ( 'NONE', #225, 17.39999999999999900 ) ;
#113 = ADVANCED_FACE ( 'NONE', ( #197, #188 ), #112, .F. ) ;
#114 = DIRECTION ( 'NONE',  ( 0.0000000000000000000, 0.0000000000000000000, -1.000000000000000000 ) ) ;
#115 = VERTEX_POINT ( 'NONE', #63 ) ;
#116 = CARTESIAN_POINT ( 'NONE',  ( -54.61346540353369500, 3.038388356863341400, 27.30673270176684800 ) ) ;
#117 = CARTESIAN_POINT ( 'NONE',  ( 0.0000000000000000000, 3.038388356863341000, -27.30673270176685500 ) ) ;
#118 = SURFACE_SIDE_STYLE ('',( #16 ) ) ;
#119 = SURFACE_STYLE_USAGE ( .BOTH. , #118 ) ;
#120 = PRODUCT_DEFINITION_CONTEXT ( 'detailed design', #191, 'design' ) ;
#121 = CARTESIAN_POINT ( 'NONE',  ( -54.15881904510260400, 3.099299419155042900, -27.07940952255130200 ) ) ;
#122 = EDGE_CURVE ( 'NONE', #164, #164, #49, .T. ) ;
#123 = CARTESIAN_POINT ( 'NONE',  ( 0.0000000000000000000, 0.0000000000000000000, 0.0000000000000000000 ) ) ;
#124 = AXIS2_PLACEMENT_3D ( 'NONE', #226, #211, #109 ) ;
#125 = DIRECTION ( 'NONE',  ( 0.0000000000000000000, 0.0000000000000000000, 1.000000000000000000 ) ) ;
#126 = FILL_AREA_STYLE_COLOUR ( '', #244 ) ;
#127 = CARTESIAN_POINT ( 'NONE',  ( 0.0000000000000000000, 2.616336506010520100, -27.44999999999999900 ) ) ;
#128 = DIRECTION ( 'NONE',  ( 0.0000000000000000000, -1.000000000000000000, 0.0000000000000000000 ) ) ;
#129 = ADVANCED_FACE ( 'NONE', ( #41, #212 ), #141, .T. ) ;
#130 = CARTESIAN_POINT ( 'NONE',  ( -54.89999999999999900, 2.851678778707475100, -27.44999999999999900 ) ) ;
#131 = AXIS2_PLACEMENT_3D ( 'NONE', #22, #132, #143 ) ;
#132 = DIRECTION ( 'NONE',  ( 0.0000000000000000000, 1.000000000000000000, 0.0000000000000000000 ) ) ;
#133 = FACE_BOUND ( 'NONE', #50, .T. ) ;
#134 = FACE_OUTER_BOUND ( 'NONE', #37, .T. ) ;
#135 = PRODUCT_DEFINITION_SHAPE ( 'NONE', 'NONE',  #178 ) ;
#136 = CARTESIAN_POINT ( 'NONE',  ( 0.0000000000000000000, 2.540000000000000000, 0.0000000000000000000 ) ) ;
#137 = PLANE ( 'NONE',  #18 ) ;
#138 = ORIENTED_EDGE ( 'NONE', *, *, #93, .T. ) ;
#139 = CARTESIAN_POINT ( 'NONE',  ( 0.0000000000000000000, 2.616336506010520100, 27.44999999999999900 ) ) ;
#140 = FACE_OUTER_BOUND ( 'NONE', #105, .T. ) ;
#141 = CYLINDRICAL_SURFACE ( 'NONE', #2, 19.05000000000000100 ) ;
#142 = EDGE_LOOP ( 'NONE', ( #7 ) ) ;
#143 = DIRECTION ( 'NONE',  ( 0.0000000000000000000, 0.0000000000000000000, 1.000000000000000000 ) ) ;
#144 = CIRCLE ( 'NONE', #131, 19.05000000000000100 ) ;
#145 = AXIS2_PLACEMENT_3D ( 'NONE', #88, #183, #76 ) ;
#146 = SURFACE_STYLE_USAGE ( .BOTH. , #30 ) ;
#147 = EDGE_LOOP ( 'NONE', ( #90 ) ) ;
#148 = CIRCLE ( 'NONE', #13, 20.60000000000000100 ) ;
#149 = ADVANCED_FACE ( 'NONE', ( #89, #48 ), #137, .F. ) ;
#150 = FACE_OUTER_BOUND ( 'NONE', #147, .T. ) ;
#151 = FACE_OUTER_BOUND ( 'NONE', #160, .T. ) ;
#152 = EDGE_LOOP ( 'NONE', ( #87 ) ) ;
#153 =( NAMED_UNIT ( * ) PLANE_ANGLE_UNIT ( ) SI_UNIT ( $, .RADIAN. ) );
#154 = VERTEX_POINT ( 'NONE', #21 ) ;
#155 = CARTESIAN_POINT ( 'NONE',  ( 0.0000000000000000000, 3.099299419171333900, 27.07940952255566500 ) ) ;
#156 = CARTESIAN_POINT ( 'NONE',  ( 0.0000000000000000000, 0.0000000000000000000, 0.0000000000000000000 ) ) ;
#157 = APPLICATION_CONTEXT ( 'automotive_design' ) ;
#158 = EDGE_LOOP ( 'NONE', ( #192 ) ) ;
#159 = FACE_BOUND ( 'NONE', #206, .T. ) ;
#160 = EDGE_LOOP ( 'NONE', ( #163 ) ) ;
#161 = CARTESIAN_POINT ( 'NONE',  ( 54.15881904510260400, 3.099299419155042900, -27.07940952255130200 ) ) ;
#162 = MECHANICAL_DESIGN_GEOMETRIC_PRESENTATION_REPRESENTATION (  '', ( #241 ), #27 ) ;
#163 = ORIENTED_EDGE ( 'NONE', *, *, #28, .F. ) ;
#164 = VERTEX_POINT ( 'NONE', #155 ) ;
#165 = AXIS2_PLACEMENT_3D ( 'NONE', #168, #54, #75 ) ;
#166 = ORIENTED_EDGE ( 'NONE', *, *, #199, .F. ) ;
#167 = VERTEX_POINT ( 'NONE', #242 ) ;
#168 = CARTESIAN_POINT ( 'NONE',  ( 0.0000000000000000000, 0.0000000000000000000, 0.0000000000000000000 ) ) ;
#169 = MANIFOLD_SOLID_BREP ( '\X2\5BE69AD4\X0\1', #5 ) ;
#170 = ADVANCED_FACE ( 'NONE', ( #47, #133 ), #203, .T. ) ;
#171 = CARTESIAN_POINT ( 'NONE',  ( 54.89999999999999900, 2.851678778707475100, 27.44999999999999900 ) ) ;
#172 = AXIS2_PLACEMENT_3D ( 'NONE', #246, #11, #31 ) ;
#173 = CARTESIAN_POINT ( 'NONE',  ( 0.0000000000000000000, 2.540000000000000500, -17.39999999999999900 ) ) ;
#174 =( NAMED_UNIT ( * ) PLANE_ANGLE_UNIT ( ) SI_UNIT ( $, .RADIAN. ) );
#175 = AXIS2_PLACEMENT_3D ( 'NONE', #4, #43, #101 ) ;
#176 = CARTESIAN_POINT ( 'NONE',  ( 0.0000000000000000000, 3.099299419155043400, -27.07940952255129800 ) ) ;
#177 = DIRECTION ( 'NONE',  ( 0.0000000000000000000, 1.000000000000000000, 0.0000000000000000000 ) ) ;
#178 = PRODUCT_DEFINITION ( 'UNKNOWN', '', #236, #120 ) ;
#179 = CIRCLE ( 'NONE', #73, 17.39999999999999900 ) ;
#180 = EDGE_CURVE ( 'NONE', #8, #8, #247, .T. ) ;
#181 = DIRECTION ( 'NONE',  ( 0.0000000000000000000, 0.0000000000000000000, -1.000000000000000000 ) ) ;
#182 = AXIS2_PLACEMENT_3D ( 'NONE', #156, #35, #64 ) ;
#183 = DIRECTION ( 'NONE',  ( -0.0000000000000000000, 1.000000000000000000, -0.0000000000000000000 ) ) ;
#184 = EDGE_LOOP ( 'NONE', ( #243 ) ) ;
#185 = CARTESIAN_POINT ( 'NONE',  ( 0.0000000000000000000, 2.616336506010520100, 0.0000000000000000000 ) ) ;
#186 = CARTESIAN_POINT ( 'NONE',  ( 0.0000000000000000000, 2.616336506010520100, 27.44999999999999900 ) ) ;
#187 = ADVANCED_FACE ( 'NONE', ( #159, #104 ), #239, .F. ) ;
#188 = FACE_OUTER_BOUND ( 'NONE', #46, .T. ) ;
#189 = ORIENTED_EDGE ( 'NONE', *, *, #199, .T. ) ;
#190 = CARTESIAN_POINT ( 'NONE',  ( 0.0000000000000000000, 3.038388356863341000, 27.30673270176685500 ) ) ;
#191 = APPLICATION_CONTEXT ( 'automotive_design' ) ;
#192 = ORIENTED_EDGE ( 'NONE', *, *, #122, .T. ) ;
#193 = CARTESIAN_POINT ( 'NONE',  ( 0.0000000000000000000, 3.099299419155043400, 27.07940952255129800 ) ) ;
#194 = FACE_OUTER_BOUND ( 'NONE', #92, .T. ) ;
#195 = SURFACE_STYLE_FILL_AREA ( #198 ) ;
#196 = ORIENTED_EDGE ( 'NONE', *, *, #108, .F. ) ;
#197 = FACE_OUTER_BOUND ( 'NONE', #102, .T. ) ;
#198 = FILL_AREA_STYLE ('',( #126 ) ) ;
#199 = EDGE_CURVE ( 'NONE', #115, #115, #148, .T. ) ;
#200 = DIRECTION ( 'NONE',  ( 0.0000000000000000000, 0.0000000000000000000, 1.000000000000000000 ) ) ;
#201 = ORIENTED_EDGE ( 'NONE', *, *, #95, .F. ) ;
#202 = AXIS2_PLACEMENT_3D ( 'NONE', #123, #3, #221 ) ;
#203 = CONICAL_SURFACE ( 'NONE', #228, 27.07940952255566500, 1.308996939000000000 ) ;
#204 = ORIENTED_EDGE ( 'NONE', *, *, #42, .F. ) ;
#205 = CIRCLE ( 'NONE', #217, 27.44999999999999900 ) ;
#206 = EDGE_LOOP ( 'NONE', ( #138 ) ) ;
#207 =( BOUNDED_SURFACE ( )  B_SPLINE_SURFACE ( 3, 3, ( 
 ( #235, #67, #161, #176, #121, #23, #193 ),
 ( #65, #220, #257, #117, #232, #116, #190 ),
 ( #77, #171, #33, #215, #130, #94, #57 ),
 ( #186, #19, #223, #127, #6, #26, #139 ) ),
 .UNSPECIFIED., .F., .T., .T. ) 
 B_SPLINE_SURFACE_WITH_KNOTS ( ( 4, 4 ),
 ( 4, 3, 4 ),
 ( 0.0000000000000000000, 1.000000000000000000 ),
 ( 0.0000000000000000000, 0.5000000000000000000, 1.000000000000000000 ),
 .UNSPECIFIED. ) 
 GEOMETRIC_REPRESENTATION_ITEM ( )  RATIONAL_B_SPLINE_SURFACE ( (
 ( 1.000000000000000000, 0.3333333333333333100, 0.3333333333333333100, 1.000000000000000000, 0.3333333333333333100, 0.3333333333333333100, 1.000000000000000000),
 ( 0.8622355601941740200, 0.2874118533980579700, 0.2874118533980579700, 0.8622355601941740200, 0.2874118533980579700, 0.2874118533980579700, 0.8622355601941740200),
 ( 0.8622355601941740200, 0.2874118533980579700, 0.2874118533980579700, 0.8622355601941740200, 0.2874118533980579700, 0.2874118533980579700, 0.8622355601941740200),
 ( 1.000000000000000000, 0.3333333333333333100, 0.3333333333333333100, 1.000000000000000000, 0.3333333333333333100, 0.3333333333333333100, 1.000000000000000000) ) ) 
 REPRESENTATION_ITEM ( '' )  SURFACE ( )  );
#208 = EDGE_LOOP ( 'NONE', ( #55 ) ) ;
#209 = DIRECTION ( 'NONE',  ( 0.0000000000000000000, 1.000000000000000000, 0.0000000000000000000 ) ) ;
#210 = PLANE ( 'NONE',  #172 ) ;
#211 = DIRECTION ( 'NONE',  ( 0.0000000000000000000, 1.000000000000000000, 0.0000000000000000000 ) ) ;
#212 = FACE_OUTER_BOUND ( 'NONE', #184, .T. ) ;
#213 = SHAPE_DEFINITION_REPRESENTATION ( #135, #80 ) ;
#214 =( LENGTH_UNIT ( ) NAMED_UNIT ( * ) SI_UNIT ( .MILLI., .METRE. ) );
#215 = CARTESIAN_POINT ( 'NONE',  ( 0.0000000000000000000, 2.851678778707475500, -27.45000000000000600 ) ) ;
#216 = APPLICATION_PROTOCOL_DEFINITION ( 'draft international standard', 'automotive_design', 1998, #157 ) ;
#217 = AXIS2_PLACEMENT_3D ( 'NONE', #185, #10, #29 ) ;
#218 = STYLED_ITEM ( 'NONE', ( #107 ), #80 ) ;
#219 = UNCERTAINTY_MEASURE_WITH_UNIT (LENGTH_MEASURE( 1.000000000000000100E-005 ), #233, 'distance_accuracy_value', 'NONE');
#220 = CARTESIAN_POINT ( 'NONE',  ( 54.61346540353369500, 3.038388356863341400, 27.30673270176684800 ) ) ;
#221 = DIRECTION ( 'NONE',  ( 0.0000000000000000000, 0.0000000000000000000, 1.000000000000000000 ) ) ;
#222 = DIRECTION ( 'NONE',  ( 0.0000000000000000000, 1.000000000000000000, 0.0000000000000000000 ) ) ;
#223 = CARTESIAN_POINT ( 'NONE',  ( 54.89999999999999100, 2.616336506010520100, -27.44999999999999600 ) ) ;
#224 = PRESENTATION_LAYER_ASSIGNMENT (  '', '', ( #218 ) ) ;
#225 = AXIS2_PLACEMENT_3D ( 'NONE', #111, #128, #181 ) ;
#226 = CARTESIAN_POINT ( 'NONE',  ( 0.0000000000000000000, 0.0000000000000000000, 0.0000000000000000000 ) ) ;
#227 = DIRECTION ( 'NONE',  ( 0.0000000000000000000, -1.000000000000000000, 0.0000000000000000000 ) ) ;
#228 = AXIS2_PLACEMENT_3D ( 'NONE', #17, #231, #114 ) ;
#229 = DIRECTION ( 'NONE',  ( 0.0000000000000000000, 0.0000000000000000000, 1.000000000000000000 ) ) ;
#230 = ADVANCED_FACE ( 'NONE', ( #194, #140 ), #51, .F. ) ;
#231 = DIRECTION ( 'NONE',  ( 0.0000000000000000000, -1.000000000000000000, -0.0000000000000000000 ) ) ;
#232 = CARTESIAN_POINT ( 'NONE',  ( -54.61346540353369500, 3.038388356863341400, -27.30673270176684800 ) ) ;
#233 =( LENGTH_UNIT ( ) NAMED_UNIT ( * ) SI_UNIT ( .MILLI., .METRE. ) );
#234 = FILL_AREA_STYLE_COLOUR ( '', #9 ) ;
#235 = CARTESIAN_POINT ( 'NONE',  ( 0.0000000000000000000, 3.099299419155043400, 27.07940952255129800 ) ) ;
#236 = PRODUCT_DEFINITION_FORMATION_WITH_SPECIFIED_SOURCE ( 'ANY', '', #20, .NOT_KNOWN. ) ;
#237 = FACE_OUTER_BOUND ( 'NONE', #208, .T. ) ;
#238 = DIRECTION ( 'NONE',  ( 0.0000000000000000000, -0.0000000000000000000, 1.000000000000000000 ) ) ;
#239 = PLANE ( 'NONE',  #68 ) ;
#240 = CARTESIAN_POINT ( 'NONE',  ( 0.0000000000000000000, 3.099299419171333900, 0.0000000000000000000 ) ) ;
#241 = STYLED_ITEM ( 'NONE', ( #39 ), #169 ) ;
#242 = CARTESIAN_POINT ( 'NONE',  ( 0.0000000000000000000, 2.616336506010520100, 27.44999999999999900 ) ) ;
#243 = ORIENTED_EDGE ( 'NONE', *, *, #108, .T. ) ;
#244 = COLOUR_RGB ( '',0.7450980392156862900, 0.7450980392156862900, 0.7450980392156862900 ) ;
#245 = ORIENTED_EDGE ( 'NONE', *, *, #93, .F. ) ;
#246 = CARTESIAN_POINT ( 'NONE',  ( -9.714716642291439400E-016, 19.10000000000000100, 3.885294924322510200E-016 ) ) ;
#247 = CIRCLE ( 'NONE', #175, 27.44999999999999900 ) ;
#248 = ORIENTED_EDGE ( 'NONE', *, *, #82, .F. ) ;
#249 = PRODUCT_RELATED_PRODUCT_CATEGORY ( 'part', '', ( #20 ) ) ;
#250 =( LENGTH_UNIT ( ) NAMED_UNIT ( * ) SI_UNIT ( .MILLI., .METRE. ) );
#251 = CIRCLE ( 'NONE', #124, 20.60000000000000100 ) ;
#252 = ORIENTED_EDGE ( 'NONE', *, *, #180, .T. ) ;
#253 =( NAMED_UNIT ( * ) PLANE_ANGLE_UNIT ( ) SI_UNIT ( $, .RADIAN. ) );
#254 = PRODUCT_CONTEXT ( 'NONE', #157, 'mechanical' ) ;
#255 =( NAMED_UNIT ( * ) SI_UNIT ( $, .STERADIAN. ) SOLID_ANGLE_UNIT ( ) );
#256 = ORIENTED_EDGE ( 'NONE', *, *, #28, .T. ) ;
#257 = CARTESIAN_POINT ( 'NONE',  ( 54.61346540353369500, 3.038388356863341400, -27.30673270176684800 ) ) ;
#258 = EDGE_LOOP ( 'NONE', ( #248 ) ) ;
ENDSEC;
END-ISO-10303-21;
